  0
SECTION
  2
HEADER
  9
$ACADVER
  1
AC1009
  9
$INSBASE
 10
0.0
 20
0.0
 30
0.0
  9
$EXTMIN
 10
-350.02746372486848
 20
-533.98230819777791
 30
-0.0015258207003583
  9
$EXTMAX
 10
550.02746791582013
 20
804.16801378504158
 30
0.0000000349246037
  9
$LIMMIN
 10
0.0
 20
0.0
  9
$LIMMAX
 10
0.0
 20
0.0
  9
$ORTHOMODE
 70
     0
  9
$REGENMODE
 70
     1
  9
$FILLMODE
 70
     1
  9
$QTEXTMODE
 70
     0
  9
$MIRRTEXT
 70
     1
  9
$DRAGMODE
 70
     2
  9
$LTSCALE
 40
25.399999999999999
  9
$OSMODE
 70
   231
  9
$ATTMODE
 70
     1
  9
$TEXTSIZE
 40
0.0
  9
$TRACEWID
 40
1.0
  9
$TEXTSTYLE
  7
STANDARD
  9
$CLAYER
  8
DATA
  9
$CELTYPE
  6
BYLAYER
  9
$CECOLOR
 62
   256
  9
$DIMSCALE
 40
1.0
  9
$DIMASZ
 40
0.18
  9
$DIMEXO
 40
0.0625
  9
$DIMDLI
 40
0.38
  9
$DIMRND
 40
0.0
  9
$DIMDLE
 40
0.0
  9
$DIMEXE
 40
0.18
  9
$DIMTP
 40
0.0
  9
$DIMTM
 40
0.0
  9
$DIMTXT
 40
0.18
  9
$DIMCEN
 40
0.09
  9
$DIMTSZ
 40
0.0
  9
$DIMTOL
 70
     0
  9
$DIMLIM
 70
     0
  9
$DIMTIH
 70
     1
  9
$DIMTOH
 70
     1
  9
$DIMSE1
 70
     0
  9
$DIMSE2
 70
     0
  9
$DIMTAD
 70
     0
  9
$DIMZIN
 70
     0
  9
$DIMBLK
  1

  9
$DIMASO
 70
     1
  9
$DIMSHO
 70
     1
  9
$DIMPOST
  1

  9
$DIMAPOST
  1

  9
$DIMALT
 70
     0
  9
$DIMALTD
 70
     2
  9
$DIMALTF
 40
25.399999999999999
  9
$DIMLFAC
 40
1.0
  9
$DIMTOFL
 70
     0
  9
$DIMTVP
 40
0.0
  9
$DIMTIX
 70
     0
  9
$DIMSOXD
 70
     0
  9
$DIMSAH
 70
     0
  9
$DIMBLK1
  1

  9
$DIMBLK2
  1

  9
$DIMSTYLE
  2
STANDARD
  9
$DIMCLRD
 70
     0
  9
$DIMCLRE
 70
     0
  9
$DIMCLRT
 70
     0
  9
$DIMTFAC
 40
1.0
  9
$DIMGAP
 40
0.09
  9
$LUNITS
 70
     2
  9
$LUPREC
 70
     4
  9
$SKETCHINC
 40
0.1
  9
$FILLETRAD
 40
0.0
  9
$AUNITS
 70
     0
  9
$AUPREC
 70
     0
  9
$MENU
  1
acad
  9
$ELEVATION
 40
0.0
  9
$PELEVATION
 40
0.0
  9
$THICKNESS
 40
0.0
  9
$LIMCHECK
 70
     0
  9
$BLIPMODE
 70
     0
  9
$CHAMFERA
 40
0.0
  9
$CHAMFERB
 40
0.0
  9
$SKPOLY
 70
     0
  9
$TDCREATE
 40
2455027.5879745372
  9
$TDUPDATE
 40
2455027.593718993
  9
$TDINDWG
 40
0.0002351273
  9
$TDUSRTIMER
 40
0.0002351273
  9
$USRTIMER
 70
     1
  9
$ANGBASE
 50
0.0
  9
$ANGDIR
 70
     0
  9
$PDMODE
 70
     1
  9
$PDSIZE
 40
-2.0
  9
$PLINEWID
 40
0.0
  9
$COORDS
 70
     0
  9
$SPLFRAME
 70
     0
  9
$SPLINETYPE
 70
     6
  9
$SPLINESEGS
 70
     8
  9
$ATTDIA
 70
     0
  9
$ATTREQ
 70
     1
  9
$HANDLING
 70
     1
  9
$HANDSEED
  5
2AD
  9
$SURFTAB1
 70
     6
  9
$SURFTAB2
 70
     6
  9
$SURFTYPE
 70
     6
  9
$SURFU
 70
     6
  9
$SURFV
 70
     6
  9
$UCSNAME
  2

  9
$UCSORG
 10
0.0
 20
0.0
 30
0.0
  9
$UCSXDIR
 10
1.0
 20
0.0
 30
0.0
  9
$UCSYDIR
 10
0.0
 20
1.0
 30
0.0
  9
$PUCSNAME
  2

  9
$PUCSORG
 10
0.0
 20
0.0
 30
0.0
  9
$PUCSXDIR
 10
1.0
 20
0.0
 30
0.0
  9
$PUCSYDIR
 10
0.0
 20
1.0
 30
0.0
  9
$USERI1
 70
     0
  9
$USERI2
 70
     0
  9
$USERI3
 70
     0
  9
$USERI4
 70
     0
  9
$USERI5
 70
     0
  9
$USERR1
 40
0.0
  9
$USERR2
 40
0.0
  9
$USERR3
 40
0.0
  9
$USERR4
 40
0.0
  9
$USERR5
 40
0.0
  9
$WORLDVIEW
 70
     1
  9
$SHADEDGE
 70
     3
  9
$SHADEDIF
 70
    70
  9
$TILEMODE
 70
     1
  9
$MAXACTVP
 70
    64
  9
$PLIMCHECK
 70
     0
  9
$PEXTMIN
 10
1.0000000000000000E+020
 20
1.0000000000000000E+020
 30
1.0000000000000000E+020
  9
$PEXTMAX
 10
-1.0000000000000000E+020
 20
-1.0000000000000000E+020
 30
-1.0000000000000000E+020
  9
$PLIMMIN
 10
0.0
 20
0.0
  9
$PLIMMAX
 10
12.0
 20
9.0
  9
$UNITMODE
 70
     0
  9
$VISRETAIN
 70
     0
  9
$PLINEGEN
 70
     1
  9
$PSLTSCALE
 70
     0
  0
ENDSEC
  0
SECTION
  2
TABLES
  0
TABLE
  2
VPORT
 70
     1
  0
VPORT
  2
*ACTIVE
 70
     0
 10
0.0
 20
0.0
 11
1.0
 21
1.0
 12
100.00000209547581
 22
135.09285279363189
 13
0.0
 23
0.0
 14
1.0
 24
1.0
 15
0.0
 25
0.0
 16
0.0
 26
0.0
 36
1.0
 17
0.0
 27
0.0
 37
0.0
 40
1348.0138378696711
 41
1.964329643296433
 42
50.0
 43
0.0
 44
0.0
 50
0.0
 51
0.0
 71
     0
 72
  2000
 73
     1
 74
     1
 75
     0
 76
     0
 77
     0
 78
     0
  0
ENDTAB
  0
TABLE
  2
LTYPE
 70
    11
  0
LTYPE
  2
CONTINUOUS
 70
     0
  3
Solid line
 72
    65
 73
     0
 40
0.0
  0
ENDTAB
  0
TABLE
  2
LAYER
 70
     5
  0
LAYER
  2
0
 70
     0
 62
     7
  6
CONTINUOUS
  0
LAYER
  2
DATA
 70
     0
 62
     7
  6
CONTINUOUS
  0
LAYER
  2
HIBINO-BASE
 70
     0
 62
     7
  6
CONTINUOUS
  0
LAYER
  2
SPEC
 70
     0
 62
     7
  6
CONTINUOUS
  0
LAYER
  2
DIMNSIONS
 70
     0
 62
     7
  6
CONTINUOUS
  0
ENDTAB
  0
TABLE
  2
STYLE
 70
     3
  0
STYLE
  2
STANDARD
 70
     0
 40
0.0
 41
1.0
 50
0.0
 71
     0
 42
0.0
  3
txt
  4
BIGFONT.SHX
  0
ENDTAB
  0
TABLE
  2
VIEW
 70
     0
  0
ENDTAB
  0
TABLE
  2
UCS
 70
     0
  0
ENDTAB
  0
TABLE
  2
APPID
 70
     3
  0
APPID
  2
ACAD
 70
     0
  0
APPID
  2
ACADANNOTATIVE
 70
     0
  0
APPID
  2
ACAD_MLEADERVER
 70
     0
  0
ENDTAB
  0
TABLE
  2
DIMSTYLE
 70
     2
  0
DIMSTYLE
  2
STANDARD
 70
     0
  3

  4

  5

  6

  7

 40
1.0
 41
0.18
 42
0.0625
 43
0.38
 44
0.18
 45
0.0
 46
0.0
 47
0.0
 48
0.0
140
0.18
141
0.09
142
0.0
143
25.399999999999999
144
1.0
145
0.0
146
1.0
147
0.09
 71
     0
 72
     0
 73
     1
 74
     1
 75
     0
 76
     0
 77
     0
 78
     0
170
     0
171
     2
172
     0
173
     0
174
     0
175
     0
176
     0
177
     0
178
     0
  0
ENDTAB
  0
ENDSEC
  0
SECTION
  2
BLOCKS
  0
BLOCK
  8
0
  2
$MODEL_SPACE
 70
     0
 10
0.0
 20
0.0
 30
0.0
  3
$MODEL_SPACE
  1

  0
ENDBLK
  5
23A
  8
0
  0
BLOCK
 67
     1
  8
0
  2
$PAPER_SPACE
 70
     0
 10
0.0
 20
0.0
 30
0.0
  3
$PAPER_SPACE
  1

  0
ENDBLK
  5
236
 67
     1
  8
0
  0
ENDSEC
  0
SECTION
  2
ENTITIES
  0
LINE
  5
2C
  8
HIBINO-BASE
  6
CONTINUOUS
 62
     7
 10
-350.0
 20
804.12725999999986
 30
0.0
 11
549.99999999999989
 21
804.12725999999986
 31
0.0
  0
LINE
  5
2D
  8
HIBINO-BASE
  6
CONTINUOUS
 62
     7
 10
549.99999999999989
 20
-495.87273999999991
 30
0.0
 11
-350.0
 21
-495.87273999999991
 31
0.0
  0
LINE
  5
2E
  8
HIBINO-BASE
  6
CONTINUOUS
 62
     7
 10
-350.0
 20
-495.87273999999991
 30
0.0
 11
-350.0
 21
804.12725999999986
 31
0.0
  0
TEXT
  5
2F
  8
HIBINO-BASE
 62
     7
 10
-314.07999999999993
 20
-527.91612899999984
 30
0.0
 40
18.00022089843749
  1
Hibino Corporation
 41
0.7
 11
-314.07999999999993
 21
-509.91590810156231
 31
0.0
 73
     3
  0
LINE
  5
30
  8
HIBINO-BASE
  6
CONTINUOUS
 62
     7
 10
549.99999999999989
 20
804.12725999999986
 30
0.0
 11
549.99999999999989
 21
-495.87273999999991
 31
0.0
  0
LINE
  5
31
  8
HIBINO-BASE
  6
CONTINUOUS
 62
     7
 10
100.0
 20
-383.37274000000002
 30
0.0
 11
549.99999999999989
 21
-383.37274000000002
 31
0.0
  0
LINE
  5
32
  8
HIBINO-BASE
  6
CONTINUOUS
 62
     7
 10
100.0
 20
-495.87273999999991
 30
0.0
 11
100.0
 21
-383.37274000000002
 31
0.0
  0
TEXT
  5
33
  8
HIBINO-BASE
 62
     7
 10
104.5
 20
-395.91620666666671
 30
0.0
 40
8.1442057291666661
  1
NOTE
 41
0.7
 11
104.5
 21
-387.77200093750002
 31
0.0
 73
     3
  0
LINE
  5
34
  8
HIBINO-BASE
  6
CONTINUOUS
 62
     7
 10
275.0
 20
-495.87273999999991
 30
0.0
 11
275.0
 21
-383.37274000000002
 31
0.0
  0
TEXT
  5
35
  8
HIBINO-BASE
 62
     7
 10
279.5
 20
-395.91620666666671
 30
0.0
 40
8.1442057291666661
  1
TITLE
 41
0.7
 11
279.5
 21
-387.77200093750002
 31
0.0
 73
     3
  0
TEXT
  5
36
  8
HIBINO-BASE
 62
     7
 10
350.34195
 20
-527.91612899999984
 30
0.0
 40
18.00022089843749
  1
ヒビノ株式会社
 41
0.7
 11
350.34195
 21
-509.91590810156231
 31
0.0
 73
     3
  0
LINE
  5
37
  8
HIBINO-BASE
  6
CONTINUOUS
 62
     7
 10
100.0
 20
-445.87273999999991
 30
0.0
 11
549.99999999999989
 21
-445.87273999999991
 31
0.0
  0
TEXT
  5
38
  8
HIBINO-BASE
 62
     7
 10
342.0
 20
-458.13460666666663
 30
0.0
 40
8.1442057291666661
  1
DRAWN
 41
0.7
 11
342.0
 21
-449.9904009375
 31
0.0
 73
     3
  0
TEXT
  5
39
  8
HIBINO-BASE
 62
     7
 10
217.0
 20
-458.13460666666663
 30
0.0
 40
8.1442057291666661
  1
DATE
 41
0.7
 11
217.0
 21
-449.9904009375
 31
0.0
 73
     3
  0
TEXT
  5
3A
  8
HIBINO-BASE
 62
     7
 10
167.0
 20
-458.13460666666663
 30
0.0
 40
8.1442057291666661
  1
SCALE
 41
0.7
 11
167.0
 21
-449.9904009375
 31
0.0
 73
     3
  0
TEXT
  5
3B
  8
HIBINO-BASE
 62
     7
 10
279.5
 20
-458.13460666666663
 30
0.0
 40
8.1442057291666661
  1
DESIGN
 41
0.7
 11
279.5
 21
-449.9904009375
 31
0.0
 73
     3
  0
TEXT
  5
3C
  8
HIBINO-BASE
 62
     7
 10
467.0
 20
-458.13460666666663
 30
0.0
 40
8.1442057291666661
  1
DRAWING NO.
 41
0.7
 11
467.0
 21
-449.9904009375
 31
0.0
 73
     3
  0
TEXT
  5
3D
  8
HIBINO-BASE
 62
     7
 10
404.49999999999989
 20
-458.13460666666663
 30
0.0
 40
8.1442057291666661
  1
CHECK
 41
0.7
 11
404.49999999999989
 21
-449.9904009375
 31
0.0
 73
     3
  0
LINE
  5
3E
  8
HIBINO-BASE
  6
CONTINUOUS
 62
     7
 10
171.875
 20
-489.62273999999991
 30
0.0
 11
190.625
 21
-470.87273999999991
 31
0.0
  0
TEXT
  5
3F
  8
HIBINO-BASE
 62
     7
 10
168.75
 20
-476.41745666666651
 30
0.0
 40
8.1442057291666661
  1
1
 41
0.7
 11
168.75
 21
-468.27325093749982
 31
0.0
 73
     3
  0
LINE
  5
40
  8
HIBINO-BASE
  6
CONTINUOUS
 62
     7
 10
162.5
 20
-495.87273999999991
 30
0.0
 11
162.5
 21
-445.87273999999991
 31
0.0
  0
LINE
  5
41
  8
HIBINO-BASE
  6
CONTINUOUS
 62
     7
 10
212.5
 20
-495.87273999999991
 30
0.0
 11
212.5
 21
-445.87273999999991
 31
0.0
  0
LINE
  5
42
  8
HIBINO-BASE
  6
CONTINUOUS
 62
     7
 10
337.5
 20
-445.87273999999991
 30
0.0
 11
337.5
 21
-495.87273999999991
 31
0.0
  0
LINE
  5
43
  8
HIBINO-BASE
  6
CONTINUOUS
 62
     7
 10
462.5
 20
-445.87273999999991
 30
0.0
 11
462.5
 21
-495.87273999999991
 31
0.0
  0
LINE
  5
44
  8
HIBINO-BASE
  6
CONTINUOUS
 62
     7
 10
400.0
 20
-495.87273999999991
 30
0.0
 11
400.0
 21
-445.87273999999991
 31
0.0
  0
TEXT
  5
45
  8
HIBINO-BASE
 62
     7
 10
216.78270000000001
 20
-481.55450666666661
 30
0.0
 40
8.1442057291666661
  1
'09.07.
 41
0.7
 11
216.78270000000001
 21
-473.41030093749993
 31
0.0
 73
     3
  0
TEXT
  5
46
  8
HIBINO-BASE
 62
     7
 10
187.5
 20
-485.79245666666651
 30
0.0
 40
8.1442057291666661
  1
5
 41
0.7
 11
187.5
 21
-477.64825093749982
 31
0.0
 73
     3
  0
TEXT
  5
47
  8
HIBINO-BASE
 62
     7
 10
345.02905005517312
 20
-481.55450666666661
 30
0.0
 40
8.1442057291666661
  1
N.Sasaki
 41
0.7
 11
345.02905005517312
 21
-473.41030093749993
 31
0.0
 73
     3
  0
TEXT
  5
48
  8
HIBINO-BASE
 62
     7
 10
119.4166666666667
 20
-485.99274000000008
 30
0.0
 40
16.288411458333329
  1
A4
 41
0.7
 11
119.4166666666667
 21
-469.70432854166671
 31
0.0
 73
     3
  0
TEXT
  5
49
  8
HIBINO-BASE
 62
     7
 10
104.7916666666666
 20
-458.97001499999971
 30
0.0
 40
8.1442057291666661
  1
PAPER SIZE
 41
0.7
 11
104.7916666666666
 21
-450.82580927083308
 31
0.0
 73
     3
  0
LINE
  5
4A
  8
SPEC
  6
CONTINUOUS
 62
     7
 10
-312.5
 20
754.12725999999998
 30
0.0
 11
425.0
 21
754.12725999999998
 31
0.0
  0
LINE
  5
4B
  8
SPEC
  6
CONTINUOUS
 62
     7
 10
-312.5
 20
735.37725999999998
 30
0.0
 11
425.0
 21
735.37725999999998
 31
0.0
  0
LINE
  5
4C
  8
SPEC
  6
CONTINUOUS
 62
     7
 10
-312.5
 20
660.37725999999998
 30
0.0
 11
425.0
 21
660.37725999999998
 31
0.0
  0
LINE
  5
4D
  8
SPEC
  6
CONTINUOUS
 62
     7
 10
-312.5
 20
679.12725999999998
 30
0.0
 11
425.0
 21
679.12725999999998
 31
0.0
  0
LINE
  5
4E
  8
SPEC
  6
CONTINUOUS
 62
     7
 10
-312.5
 20
697.87725999999998
 30
0.0
 11
425.0
 21
697.87725999999998
 31
0.0
  0
LINE
  5
4F
  8
SPEC
  6
CONTINUOUS
 62
     7
 10
-312.5
 20
716.62725999999998
 30
0.0
 11
425.0
 21
716.62725999999998
 31
0.0
  0
LINE
  5
50
  8
SPEC
  6
CONTINUOUS
 62
     7
 10
-312.5
 20
754.12725999999998
 30
0.0
 11
-312.5
 21
622.87725999999998
 31
0.0
  0
TEXT
  5
51
  8
SPEC
 62
     7
 10
-306.25
 20
761.09361000000013
 30
0.0
 40
12.21630859375
  1
仕様
 41
0.7
 11
-306.25
 21
773.30991859375013
 31
0.0
 73
     3
  0
LINE
  5
52
  8
SPEC
  6
CONTINUOUS
 62
     7
 10
-150.0
 20
754.12725999999998
 30
0.0
 11
-150.0
 21
622.87725999999998
 31
0.0
  0
LINE
  5
53
  8
SPEC
  6
CONTINUOUS
 62
     7
 10
425.0
 20
754.12725999999998
 30
0.0
 11
425.0
 21
622.87725999999998
 31
0.0
  0
TEXT
  5
54
  8
SPEC
 62
     7
 10
-308.49292292672641
 20
647.01206234219705
 30
0.0
 40
9.5015733506944464
  1
寸法
 41
0.7
 11
-308.49292292672641
 21
656.51363569289163
 31
0.0
 73
     3
  0
TEXT
  5
55
  8
SPEC
 62
     7
 10
-145.417810387993
 20
645.94569297341025
 30
0.0
 40
9.5015733506944464
  1
268(W)\U+00D7269(H)\U+00D730(D)mm(突起部含まず)
 41
0.7
 11
-145.417810387993
 21
655.44726632410482
 31
0.0
 73
     3
  0
TEXT
  5
56
  8
SPEC
 62
     7
 10
-145.6747729667614
 20
627.94031503425936
 30
0.0
 40
9.5015733506944464
  1
約300g
 41
0.7
 11
-145.6747729667614
 21
637.4418883849537
 31
0.0
 73
     3
  0
TEXT
  5
57
  8
SPEC
 62
     7
 10
-308.1934164269536
 20
628.01513634619585
 30
0.0
 40
9.5015733506944464
  1
重量
 41
0.7
 11
-308.1934164269536
 21
637.5167096968903
 31
0.0
 73
     3
  0
TEXT
  5
58
  8
SPEC
 62
     7
 10
-308.04806665804949
 20
740.19859630704559
 30
0.0
 40
9.5015733506944464
  1
形式
 41
0.7
 11
-308.04806665804949
 21
749.70016965774016
 31
0.0
 73
     3
  0
TEXT
  5
59
  8
SPEC
 62
     7
 10
-308.25264849626421
 20
721.34382610888906
 30
0.0
 40
9.5015733506944464
  1
対応周波数帯域
 41
0.7
 11
-308.25264849626421
 21
730.84539945958363
 31
0.0
 73
     3
  0
TEXT
  5
5A
  8
SPEC
 62
     7
 10
-309.3217108071197
 20
702.61994066156069
 30
0.0
 40
9.5015733506944464
  1
コネクター
 41
0.7
 11
-309.3217108071197
 21
712.12151401225515
 31
0.0
 73
     3
  0
TEXT
  5
5B
  8
SPEC
 62
     7
 10
-145.35823947408861
 20
702.70210635186947
 30
0.0
 40
9.5015733506944464
  1
RF出力：BNC(50\U+03A9)\U+00D71
 41
0.7
 11
-145.35823947408861
 21
712.20367970256405
 31
0.0
 73
     3
  0
TEXT
  5
5C
  8
SPEC
 62
     7
 10
-145.55315831970429
 20
721.27394165412454
 30
0.0
 40
9.5015733506944464
  1
500～865MHz(B型 ,A型 ,A2型)
 41
0.7
 11
-145.55315831970429
 21
730.775515004819
 31
0.0
 73
     3
  0
TEXT
  5
5D
  8
SPEC
 62
     7
 10
-308.52922397051401
 20
683.78548418448634
 30
0.0
 40
9.5015733506944464
  1
ゲイン
 41
0.7
 11
-308.52922397051401
 21
693.28705753518079
 31
0.0
 73
     3
  0
TEXT
  5
5E
  8
SPEC
 62
     7
 10
-145.2547538650951
 20
683.66548175501111
 30
0.0
 40
9.5015733506944464
  1
4dB
 41
0.7
 11
-145.2547538650951
 21
693.16705510570546
 31
0.0
 73
     3
  0
TEXT
  5
5F
  8
SPEC
 62
     7
 10
-308.35833850904288
 20
665.6566400141736
 30
0.0
 40
9.5015733506944464
  1
対向角度
 41
0.7
 11
-308.35833850904288
 21
675.15821336486795
 31
0.0
 73
     3
  0
TEXT
  5
60
  8
SPEC
 62
     7
 10
-145.7092481725322
 20
664.69191923625033
 30
0.0
 40
9.5015733506944464
  1
70\U+00B0
 41
0.7
 11
-145.7092481725322
 21
674.19349258694479
 31
0.0
 73
     3
  0
LINE
  5
61
  8
SPEC
  6
CONTINUOUS
 62
     7
 10
-312.5
 20
641.62725999999998
 30
0.0
 11
425.0
 21
641.62725999999998
 31
0.0
  0
LINE
  5
62
  8
SPEC
  6
CONTINUOUS
 62
     7
 10
-312.5
 20
622.87725999999998
 30
0.0
 11
425.0
 21
622.87725999999998
 31
0.0
  0
TEXT
  5
63
  8
SPEC
 62
     7
 10
-145.6207614889735
 20
739.9141777363285
 30
0.0
 40
9.5015733506944464
  1
指向性パッシブアンテナ
 41
0.7
 11
-145.6207614889735
 21
749.41575108702295
 31
0.0
 73
     3
  0
TEXT
  5
64
  8
DIMNSIONS
 62
     7
 10
-0.0000000000000149
 20
-434.52528999999993
 30
0.0
 40
12.21630859375
  1
(単位：mm)
 41
0.7
 11
-0.0000000000000142
 21
-422.30898140624993
 31
0.0
 73
     3
  0
LINE
  5
65
  8
DIMNSIONS
  6
CONTINUOUS
 62
     7
 10
-293.00099146436878
 20
94.02844861171701
 30
0.0
 11
-293.00099146436878
 21
-85.0
 31
0.0
  0
LINE
  5
66
  8
DIMNSIONS
  6
CONTINUOUS
 62
     7
 10
-25.0
 20
83.0
 30
0.0
 11
-25.0
 21
-85.0
 31
0.0
  0
LINE
  5
67
  8
DIMNSIONS
  6
CONTINUOUS
 62
     7
 10
-293.00099146436878
 20
-75.0
 30
0.0
 11
-25.0
 21
-75.0
 31
0.0
  0
LINE
  5
68
  8
DIMNSIONS
  6
CONTINUOUS
 62
     7
 10
-293.00099146436878
 20
-75.0
 30
0.0
 11
-280.49787867139997
 21
-71.64980102424876
 31
0.0
  0
LINE
  5
69
  8
DIMNSIONS
  6
CONTINUOUS
 62
     7
 10
-293.00099146436878
 20
-75.0
 30
0.0
 11
-280.49787867139997
 21
-78.350198975751212
 31
0.0
  0
LINE
  5
6A
  8
DIMNSIONS
  6
CONTINUOUS
 62
     7
 10
-25.0
 20
-75.0
 30
0.0
 11
-37.503112792968771
 21
-78.350198975751212
 31
0.0
  0
LINE
  5
6B
  8
DIMNSIONS
  6
CONTINUOUS
 62
     7
 10
-25.0
 20
-75.0
 30
0.0
 11
-37.503112792968771
 21
-71.64980102424876
 31
0.0
  0
TEXT
  5
6C
  8
DIMNSIONS
 62
     7
 10
-172.22966239885099
 20
-70.030555555555566
 30
0.0
 40
13.57367621527778
  1
268
 41
0.7
 11
-172.22966239885099
 21
-56.456879340277787
 31
0.0
 73
     3
  0
LINE
  5
6D
  8
DIMNSIONS
  6
CONTINUOUS
 62
     7
 10
-40.500000000000007
 20
-25.0
 30
0.0
 11
34.999999999999993
 21
-25.0
 31
0.0
  0
LINE
  5
6E
  8
DIMNSIONS
  6
CONTINUOUS
 62
     7
 10
-40.500000000000007
 20
244.0
 30
0.0
 11
34.999999999999993
 21
244.0
 31
0.0
  0
LINE
  5
6F
  8
DIMNSIONS
  6
CONTINUOUS
 62
     7
 10
24.999999999999989
 20
-25.0
 30
0.0
 11
24.999999999999989
 21
244.0
 31
0.0
  0
LINE
  5
70
  8
DIMNSIONS
  6
CONTINUOUS
 62
     7
 10
24.999999999999989
 20
-25.0
 30
0.0
 11
21.64980102424877
 21
-12.49688720703125
 31
0.0
  0
LINE
  5
71
  8
DIMNSIONS
  6
CONTINUOUS
 62
     7
 10
24.999999999999989
 20
-25.0
 30
0.0
 11
28.350198975751201
 21
-12.49688720703125
 31
0.0
  0
LINE
  5
72
  8
DIMNSIONS
  6
CONTINUOUS
 62
     7
 10
24.999999999999989
 20
244.0
 30
0.0
 11
28.350198975751201
 21
231.49688720703131
 31
0.0
  0
LINE
  5
73
  8
DIMNSIONS
  6
CONTINUOUS
 62
     7
 10
24.999999999999989
 20
244.0
 30
0.0
 11
21.64980102424877
 21
231.49688720703131
 31
0.0
  0
TEXT
  5
74
  8
DIMNSIONS
 62
     7
 10
20.030555555555551
 20
96.270833333333343
 30
0.0
 40
13.57367621527778
  1
269
 50
90.0
 41
0.7
 11
6.4568793402777649
 21
96.270833333333343
 31
0.0
 73
     3
  0
LINE
  5
75
  8
DIMNSIONS
  6
CONTINUOUS
 62
     7
 10
-27.890000000000001
 20
330.80000000000001
 30
0.0
 11
35.0
 21
330.80000000000001
 31
0.0
  0
LINE
  5
76
  8
DIMNSIONS
  6
CONTINUOUS
 62
     7
 10
-35.399999999999991
 20
360.80000000000001
 30
0.0
 11
35.0
 21
360.80000000000001
 31
0.0
  0
LINE
  5
77
  8
DIMNSIONS
  6
CONTINUOUS
 62
     7
 10
25.0
 20
330.80000000000001
 30
0.0
 11
25.0
 21
360.80000000000001
 31
0.0
  0
LINE
  5
78
  8
DIMNSIONS
  6
CONTINUOUS
 62
     7
 10
25.0
 20
330.80000000000001
 30
0.0
 11
21.649801024248791
 21
343.30311279296882
 31
0.0
  0
LINE
  5
79
  8
DIMNSIONS
  6
CONTINUOUS
 62
     7
 10
25.0
 20
330.80000000000001
 30
0.0
 11
28.350198975751209
 21
343.30311279296882
 31
0.0
  0
LINE
  5
7A
  8
DIMNSIONS
  6
CONTINUOUS
 62
     7
 10
25.0
 20
360.80000000000001
 30
0.0
 11
28.350198975751209
 21
348.2968872070312
 31
0.0
  0
LINE
  5
7B
  8
DIMNSIONS
  6
CONTINUOUS
 62
     7
 10
25.0
 20
360.80000000000001
 30
0.0
 11
21.649801024248791
 21
348.2968872070312
 31
0.0
  0
TEXT
  5
7C
  8
DIMNSIONS
 62
     7
 10
20.030555555555559
 20
336.98055555555561
 30
0.0
 40
13.57367621527778
  1
30
 50
90.0
 41
0.7
 11
6.4568793402777791
 21
336.98055555555561
 31
0.0
 73
     3
  0
TEXT
  5
7D
  8
DATA
 62
     7
 10
350.0
 20
-440.2182899999998
 30
0.0
 40
12.21630859375
  1
SRA 2 W
 41
0.7
 11
350.0
 21
-428.00198140624991
 31
0.0
 73
     3
  0
TEXT
  5
7E
  8
DATA
 62
     7
 10
350.0
 20
-403.9682899999998
 30
0.0
 40
12.21630859375
  1
AKG
 41
0.7
 11
350.0
 21
-391.75198140624991
 31
0.0
 73
     3
  0
TEXT
  5
7F
  8
DATA
 62
     7
 10
337.5
 20
-421.35307099999977
 30
0.0
 40
8.1442185546874981
  1
指向性パッシブアンテナ
 41
0.7
 11
337.5
 21
-413.20885244531229
 31
0.0
 73
     3
  0
TEXT
  5
80
  8
DATA
 62
     7
 10
-300.0
 20
-474.68273999999991
 30
0.0
 40
8.1442057291666661
  1
仕様および外観は予告なく変更されることがありますので、ご了承ください。
 41
0.7
 11
-300.0
 21
-466.53853427083322
 31
0.0
 73
     3
  0
LINE
  5
81
  8
DATA
  6
CONTINUOUS
 62
     7
 10
-25.0
 20
156.98421960658939
 30
0.0
 11
-25.0
 21
93.0
 31
0.0
  0
LINE
  5
82
  8
DATA
  6
CONTINUOUS
 62
     7
 10
-45.500000000000021
 20
91.0
 30
0.0
 11
-27.0
 21
91.0
 31
0.0
  0
LINE
  5
83
  8
DATA
  6
CONTINUOUS
 62
     7
 10
-50.500000000000021
 20
244.0
 30
0.0
 11
-50.500000000000021
 21
157.25455329101911
 31
0.0
  0
LINE
  5
84
  8
DATA
  6
CONTINUOUS
 62
     7
 10
-50.500000000000021
 20
86.0
 30
0.0
 11
-50.500000000000021
 21
12.422606356961291
 31
0.0
  0
LINE
  5
85
  8
DATA
  6
CONTINUOUS
 62
     7
 10
-74.500000000000014
 20
-25.0
 30
0.0
 11
-50.500000000000021
 21
-25.0
 31
0.0
  0
CIRCLE
  5
86
  8
DATA
  6
CONTINUOUS
 62
     7
 10
-62.500000000000021
 20
5.2115038060333632
 30
0.0
 40
14.0
  0
ARC
  5
87
  8
DATA
  6
CONTINUOUS
 62
     7
 10
-62.49999999999978
 20
4.8952146179495912
 30
0.0
 40
13.99999999999978
 50
214.75786373098461
 51
325.24213626766442
  0
LINE
  5
88
  8
DATA
  6
CONTINUOUS
 62
     7
 10
-50.998038210132918
 20
-3.0863187550581301
 30
0.0
 11
-50.500000000000021
 21
-25.0
 31
0.0
  0
LINE
  5
89
  8
DATA
  6
CONTINUOUS
 62
     7
 10
-74.00196179005485
 20
-3.0863187547869302
 30
0.0
 11
-74.500000000000014
 21
-25.0
 31
0.0
  0
ARC
  5
8A
  8
DATA
  6
CONTINUOUS
 62
     7
 10
-24.48000000000027
 20
-35.73999999999841
 30
0.0
 40
194.7406942577729
 50
90.749138519420399
 51
107.48776673197661
  0
ARC
  5
8B
  8
DATA
  6
CONTINUOUS
 62
     7
 10
25.87699350265812
 20
115.87463083284111
 30
0.0
 40
114.0996955954429
 50
162.59741837418309
 51
189.67455140561771
  0
ARC
  5
8C
  8
DATA
  6
CONTINUOUS
 62
     7
 10
-707.79991730760253
 20
13.91250689103312
 30
0.0
 40
633.30166987417431
 50
359.86520627482543
 51
2.4785617404992299
  0
ARC
  5
8D
  8
DATA
  6
CONTINUOUS
 62
     7
 10
-356.28262757038158
 20
11.778247950378271
 30
0.0
 40
282.73737564114617
 50
5.9934080389011131
 51
17.478962092768501
  0
ARC
  5
8E
  8
DATA
  6
CONTINUOUS
 62
     7
 10
-27.0
 20
156.98421960658939
 30
0.0
 40
2.0
 50
0.0
 51
90.749138519420583
  0
ARC
  5
8F
  8
DATA
  6
CONTINUOUS
 62
     7
 10
-27.0
 20
93.0
 30
0.0
 40
2.0
 50
270.0
 51
0.0
  0
ARC
  5
90
  8
DATA
  6
CONTINUOUS
 62
     7
 10
-45.500000000000021
 20
86.0
 30
0.0
 40
5.0
 50
90.0
 51
180.0
  0
LINE
  5
91
  8
DATA
  6
CONTINUOUS
 62
     7
 10
-44.250000000000021
 20
88.0
 30
0.0
 11
-44.250000000000021
 21
91.0
 31
0.0
  0
LINE
  5
92
  8
DATA
  6
CONTINUOUS
 62
     7
 10
-28.250000000000011
 20
91.0
 30
0.0
 11
-28.250000000000011
 21
88.0
 31
0.0
  0
LINE
  5
93
  8
DATA
  6
CONTINUOUS
 62
     7
 10
-44.250000000000021
 20
88.0
 30
0.0
 11
-28.250000000000011
 21
88.0
 31
0.0
  0
LINE
  5
94
  8
DATA
  6
CONTINUOUS
 62
     7
 10
-41.100000000000009
 20
75.0
 30
0.0
 11
-31.40000000000002
 21
75.0
 31
0.0
  0
LINE
  5
95
  8
DATA
  6
CONTINUOUS
 62
     7
 10
-41.100000000000009
 20
75.0
 30
0.0
 11
-41.100000000000009
 21
88.0
 31
0.0
  0
LINE
  5
96
  8
DATA
  6
CONTINUOUS
 62
     7
 10
-31.40000000000002
 20
88.0
 30
0.0
 11
-31.40000000000002
 21
75.0
 31
0.0
  0
CIRCLE
  5
97
  8
DATA
  6
CONTINUOUS
 62
     7
 10
-36.250000000000021
 20
78.357692998219008
 30
0.0
 40
0.9749999999999944
  0
LINE
  5
98
  8
DATA
  6
CONTINUOUS
 62
     7
 10
-97.855154016156291
 20
-14.429240594175839
 30
0.0
 11
-74.498257426928433
 21
13.80000000000001
 31
0.0
  0
ARC
  5
99
  8
DATA
  6
CONTINUOUS
 62
     7
 10
-225.54403783626631
 20
125.3887671315977
 30
0.0
 40
67.45712837380681
 50
129.34915365023531
 51
180.3369091205287
  0
ARC
  5
9A
  8
DATA
  6
CONTINUOUS
 62
     7
 10
-57.341246207686183
 20
-110.1353810649077
 30
0.0
 40
356.7555832091391
 50
97.401652815583574
 51
126.2541016099992
  0
LINE
  5
9B
  8
DATA
  6
CONTINUOUS
 62
     7
 10
-50.500000000000021
 20
244.0
 30
0.0
 11
-95.552920905656066
 21
244.0
 31
0.0
  0
ARC
  5
9C
  8
DATA
  6
CONTINUOUS
 62
     7
 10
-225.54403783626631
 20
104.1819922742265
 30
0.0
 40
67.457128373806796
 50
179.6630908794713
 51
230.65084634976461
  0
ARC
  5
9D
  8
DATA
  6
CONTINUOUS
 62
     7
 10
-57.341246207686183
 20
339.7061404707319
 30
0.0
 40
356.7555832091391
 50
233.7458983900008
 51
263.0515840925363
  0
LINE
  5
9E
  8
DATA
  6
CONTINUOUS
 62
     7
 10
-50.500000000000021
 20
-14.429240594175839
 30
0.0
 11
-50.740244531960471
 21
-14.429240594175839
 31
0.0
  0
LINE
  5
9F
  8
DATA
  6
CONTINUOUS
 62
     7
 10
-97.855154016156291
 20
-14.429240594175839
 30
0.0
 11
-100.5
 21
-14.429240594175839
 31
0.0
  0
LINE
  5
A0
  8
DATA
  6
CONTINUOUS
 62
     7
 10
-292.99999999977081
 20
104.5786496025294
 30
0.0
 11
-292.99999999977081
 21
124.9921098032947
 31
0.0
  0
ARC
  5
A1
  8
DATA
  6
CONTINUOUS
 62
     7
 10
-95.376460452828212
 20
154.8104228175261
 30
0.0
 40
89.189751744692444
 50
89.886641171252208
 51
95.096826356224426
  0
CIRCLE
  5
A2
  8
DATA
  6
CONTINUOUS
 62
     7
 10
-101.3452383767256
 20
125.0
 30
0.0
 40
12.0
  0
CIRCLE
  5
A3
  8
DATA
  6
CONTINUOUS
 62
     7
 10
-101.3452383767256
 20
125.0
 30
0.0
 40
11.5
  0
CIRCLE
  5
A4
  8
DATA
  6
CONTINUOUS
 62
     7
 10
-263.0640447208778
 20
125.0
 30
0.0
 40
12.0
  0
CIRCLE
  5
A5
  8
DATA
  6
CONTINUOUS
 62
     7
 10
-263.0640447208778
 20
125.0
 30
0.0
 40
11.5
  0
LINE
  5
A6
  8
DATA
  6
CONTINUOUS
 62
     7
 10
-264.9000000000126
 20
65.004703669753297
 30
0.0
 11
-261.9000000000126
 21
65.004703669753297
 31
0.0
  0
LINE
  5
A7
  8
DATA
  6
CONTINUOUS
 62
     7
 10
-264.9000000000126
 20
65.004703669753297
 30
0.0
 11
-264.9000000000126
 21
113.1412788120718
 31
0.0
  0
LINE
  5
A8
  8
DATA
  6
CONTINUOUS
 62
     7
 10
-261.9000000000126
 20
113.05659178091
 30
0.0
 11
-261.9000000000126
 21
65.004703669753297
 31
0.0
  0
LINE
  5
A9
  8
DATA
  6
CONTINUOUS
 62
     7
 10
-113.30283668706301
 20
123.9921098032947
 30
0.0
 11
-251.10644641053989
 21
123.9921098032947
 31
0.0
  0
LINE
  5
AA
  8
DATA
  6
CONTINUOUS
 62
     7
 10
-251.10512678746039
 20
125.9921098032947
 30
0.0
 11
-113.3041563101427
 21
125.9921098032947
 31
0.0
  0
LINE
  5
AB
  8
DATA
  6
CONTINUOUS
 62
     7
 10
-246.71652611312081
 20
125.9921098032947
 30
0.0
 11
-246.71652611312081
 21
190.99210980329471
 31
0.0
  0
LINE
  5
AC
  8
DATA
  6
CONTINUOUS
 62
     7
 10
-243.71652611312081
 20
190.99210980329471
 30
0.0
 11
-243.71652611312081
 21
125.9921098032947
 31
0.0
  0
LINE
  5
AD
  8
DATA
  6
CONTINUOUS
 62
     7
 10
-246.71652611312081
 20
190.99210980329471
 30
0.0
 11
-243.71652611312081
 21
190.99210980329471
 31
0.0
  0
POLYLINE
  5
AE
  8
DATA
  6
CONTINUOUS
 62
     7
 66
     1
 10
0.0
 20
0.0
 30
0.0
 70
     1
  0
VERTEX
  5
266
  8
DATA
  6
CONTINUOUS
 62
     7
 10
-205.20567151560601
 20
205.99210980329471
 30
0.0
  0
VERTEX
  5
267
  8
DATA
  6
CONTINUOUS
 62
     7
 10
-201.20567151560601
 20
205.99210980329471
 30
0.0
  0
VERTEX
  5
268
  8
DATA
  6
CONTINUOUS
 62
     7
 10
-201.20567151560601
 20
125.9921098032947
 30
0.0
  0
VERTEX
  5
269
  8
DATA
  6
CONTINUOUS
 62
     7
 10
-205.20567151560601
 20
125.9921098032947
 30
0.0
  0
SEQEND
  5
26A
  8
DATA
  6
CONTINUOUS
 62
     7
  0
POLYLINE
  5
B5
  8
DATA
  6
CONTINUOUS
 62
     7
 66
     1
 10
0.0
 20
0.0
 30
0.0
 70
     1
  0
VERTEX
  5
26B
  8
DATA
  6
CONTINUOUS
 62
     7
 10
-141.6727120809642
 20
233.99210980329471
 30
0.0
  0
VERTEX
  5
26C
  8
DATA
  6
CONTINUOUS
 62
     7
 10
-135.6727120809642
 20
233.99210980329471
 30
0.0
  0
VERTEX
  5
26D
  8
DATA
  6
CONTINUOUS
 62
     7
 10
-135.6727120809642
 20
125.9921098032947
 30
0.0
  0
VERTEX
  5
26E
  8
DATA
  6
CONTINUOUS
 62
     7
 10
-141.6727120809642
 20
125.9921098032947
 30
0.0
  0
SEQEND
  5
26F
  8
DATA
  6
CONTINUOUS
 62
     7
  0
LINE
  5
BC
  8
DATA
  6
CONTINUOUS
 62
     7
 10
-105.45103106783441
 20
-1.259451162238576
 30
0.0
 11
-105.45103106783441
 21
113.7242531787186
 31
0.0
  0
LINE
  5
BD
  8
DATA
  6
CONTINUOUS
 62
     7
 10
-97.451031067834435
 20
-1.259451162238576
 30
0.0
 11
-105.45103106783441
 21
-1.259451162238576
 31
0.0
  0
LINE
  5
BE
  8
DATA
  6
CONTINUOUS
 62
     7
 10
-97.451031067834435
 20
113.64944276982941
 30
0.0
 11
-97.451031067834435
 21
-1.259451162238576
 31
0.0
  0
LINE
  5
BF
  8
DATA
  6
CONTINUOUS
 62
     7
 10
-175.46055707259001
 20
33.99210980329471
 30
0.0
 11
-175.46055707259001
 21
123.9921098032947
 31
0.0
  0
LINE
  5
C0
  8
DATA
  6
CONTINUOUS
 62
     7
 10
-169.46055707259001
 20
33.99210980329471
 30
0.0
 11
-175.46055707259001
 21
33.99210980329471
 31
0.0
  0
LINE
  5
C1
  8
DATA
  6
CONTINUOUS
 62
     7
 10
-169.46055707259001
 20
123.9921098032947
 30
0.0
 11
-169.46055707259001
 21
33.99210980329471
 31
0.0
  0
LINE
  5
C2
  8
DATA
  6
CONTINUOUS
 62
     7
 10
-227.705865103348
 20
53.992109803294703
 30
0.0
 11
-227.705865103348
 21
123.9921098032947
 31
0.0
  0
LINE
  5
C3
  8
DATA
  6
CONTINUOUS
 62
     7
 10
-223.705865103348
 20
53.992109803294703
 30
0.0
 11
-227.705865103348
 21
53.992109803294703
 31
0.0
  0
LINE
  5
C4
  8
DATA
  6
CONTINUOUS
 62
     7
 10
-223.705865103348
 20
123.9921098032947
 30
0.0
 11
-223.705865103348
 21
53.992109803294703
 31
0.0
  0
LINE
  5
C5
  8
DATA
  6
CONTINUOUS
 62
     7
 10
-292.99999999977081
 20
350.0
 30
0.0
 11
-50.500000000000021
 21
350.0
 31
0.0
  0
LINE
  5
C6
  8
DATA
  6
CONTINUOUS
 62
     7
 10
-50.500000000000021
 20
350.0
 30
0.0
 11
-50.500000000000021
 21
352.0
 31
0.0
  0
LINE
  5
C7
  8
DATA
  6
CONTINUOUS
 62
     7
 10
-25.0
 20
350.60000000000002
 30
0.0
 11
-25.0
 21
351.39999999999998
 31
0.0
  0
LINE
  5
C8
  8
DATA
  6
CONTINUOUS
 62
     7
 10
-292.99999999977081
 20
350.0
 30
0.0
 11
-292.99999999977081
 21
352.0
 31
0.0
  0
LINE
  5
C9
  8
DATA
  6
CONTINUOUS
 62
     7
 10
-292.99999999977081
 20
352.0
 30
0.0
 11
-50.500000000000021
 21
352.0
 31
0.0
  0
LINE
  5
CA
  8
DATA
  6
CONTINUOUS
 62
     7
 10
-275.06404472087792
 20
346.0
 30
0.0
 11
-275.06404472087792
 21
350.0
 31
0.0
  0
LINE
  5
CB
  8
DATA
  6
CONTINUOUS
 62
     7
 10
-275.06404472087792
 20
352.0
 30
0.0
 11
-275.06404472087792
 21
356.0
 31
0.0
  0
LINE
  5
CC
  8
DATA
  6
CONTINUOUS
 62
     7
 10
-251.0640447208778
 20
346.0
 30
0.0
 11
-251.0640447208778
 21
350.0
 31
0.0
  0
LINE
  5
CD
  8
DATA
  6
CONTINUOUS
 62
     7
 10
-251.0640447208778
 20
352.0
 30
0.0
 11
-251.0640447208778
 21
356.0
 31
0.0
  0
LINE
  5
CE
  8
DATA
  6
CONTINUOUS
 62
     7
 10
-113.3452383767256
 20
346.0
 30
0.0
 11
-113.3452383767256
 21
350.0
 31
0.0
  0
LINE
  5
CF
  8
DATA
  6
CONTINUOUS
 62
     7
 10
-113.3452383767256
 20
352.0
 30
0.0
 11
-113.3452383767256
 21
356.0
 31
0.0
  0
LINE
  5
D0
  8
DATA
  6
CONTINUOUS
 62
     7
 10
-89.347842826023907
 20
346.0
 30
0.0
 11
-89.347842826023907
 21
350.0
 31
0.0
  0
LINE
  5
D1
  8
DATA
  6
CONTINUOUS
 62
     7
 10
-89.347842826023907
 20
352.0
 30
0.0
 11
-89.347842826023907
 21
356.0
 31
0.0
  0
LINE
  5
D2
  8
DATA
  6
CONTINUOUS
 62
     7
 10
-89.347842826023907
 20
346.0
 30
0.0
 11
-113.3452383767256
 21
346.0
 31
0.0
  0
LINE
  5
D3
  8
DATA
  6
CONTINUOUS
 62
     7
 10
-251.0640447208778
 20
346.0
 30
0.0
 11
-275.06404472087792
 21
346.0
 31
0.0
  0
LINE
  5
D4
  8
DATA
  6
CONTINUOUS
 62
     7
 10
-275.06404472087792
 20
356.0
 30
0.0
 11
-251.0640447208778
 21
356.0
 31
0.0
  0
LINE
  5
D5
  8
DATA
  6
CONTINUOUS
 62
     7
 10
-113.3452383767256
 20
356.0
 30
0.0
 11
-89.347842826023907
 21
356.0
 31
0.0
  0
LINE
  5
D6
  8
DATA
  6
CONTINUOUS
 62
     7
 10
-251.0640447208778
 20
354.0
 30
0.0
 11
-113.3452383767256
 21
354.0
 31
0.0
  0
LINE
  5
D7
  8
DATA
  6
CONTINUOUS
 62
     7
 10
-88.098359000443239
 20
356.80000000000001
 30
0.0
 11
-25.000000000000011
 21
356.80000000000001
 31
0.0
  0
LINE
  5
D8
  8
DATA
  6
CONTINUOUS
 62
     7
 10
-73.000000000000014
 20
360.80000000000001
 30
0.0
 11
-45.000000000000021
 21
360.80000000000001
 31
0.0
  0
LINE
  5
D9
  8
DATA
  6
CONTINUOUS
 62
     7
 10
-25.0
 20
350.60000000000002
 30
0.0
 11
-50.500000000000021
 21
350.60000000000002
 31
0.0
  0
LINE
  5
DA
  8
DATA
  6
CONTINUOUS
 62
     7
 10
-50.500000000000021
 20
351.39999999999998
 30
0.0
 11
-25.0
 21
351.39999999999998
 31
0.0
  0
LINE
  5
DB
  8
DATA
  6
CONTINUOUS
 62
     7
 10
-25.000000000000011
 20
356.80000000000001
 30
0.0
 11
-25.000000000000011
 21
351.39999999999998
 31
0.0
  0
LINE
  5
DC
  8
DATA
  6
CONTINUOUS
 62
     7
 10
-25.0
 20
350.60000000000002
 30
0.0
 11
-25.0
 21
333.23883918184322
 31
0.0
  0
LINE
  5
DD
  8
DATA
  6
CONTINUOUS
 62
     7
 10
-45.000000000000021
 20
356.80000000000001
 30
0.0
 11
-45.000000000000021
 21
360.80000000000001
 31
0.0
  0
LINE
  5
DE
  8
DATA
  6
CONTINUOUS
 62
     7
 10
-73.000000000000014
 20
356.80000000000001
 30
0.0
 11
-73.000000000000014
 21
360.80000000000001
 31
0.0
  0
LINE
  5
DF
  8
DATA
  6
CONTINUOUS
 62
     7
 10
-88.098359000443239
 20
356.80000000000001
 30
0.0
 11
-88.098359000443239
 21
352.0
 31
0.0
  0
LINE
  5
E0
  8
DATA
  6
CONTINUOUS
 62
     7
 10
-88.098359000443239
 20
350.0
 30
0.0
 11
-88.098359000443239
 21
346.0
 31
0.0
  0
LINE
  5
E1
  8
DATA
  6
CONTINUOUS
 62
     7
 10
-88.098359000443239
 20
346.0
 30
0.0
 11
-25.0
 21
346.0
 31
0.0
  0
ARC
  5
E2
  8
DATA
  6
CONTINUOUS
 62
     7
 10
-39.774703891709002
 20
376.76565813277381
 30
0.0
 40
45.966029228929123
 50
252.82247933429869
 51
288.74922077427078
  0
ARC
  5
E3
  8
DATA
  6
CONTINUOUS
 62
     7
 10
-95.691744342643645
 20
280.28974820942028
 30
0.0
 40
66.147537303640576
 50
58.599947776169287
 51
83.408217379372061
  0
ARC
  5
E4
  8
DATA
  6
CONTINUOUS
 62
     7
 10
-248.1612478651129
 20
-50.768584092669641
 30
0.0
 40
430.2494876001212
 50
63.07738287775463
 51
64.248046929289345
  0
LINE
  5
E5
  8
DATA
  6
CONTINUOUS
 62
     7
 10
-292.99999999977081
 20
-198.0
 30
0.0
 11
-76.500000000000014
 21
-198.0
 31
0.0
  0
LINE
  5
E6
  8
DATA
  6
CONTINUOUS
 62
     7
 10
-50.500000000000021
 20
-198.54704576964369
 30
0.0
 11
-50.500000000000021
 21
-198.59999999999999
 31
0.0
  0
LINE
  5
E7
  8
DATA
  6
CONTINUOUS
 62
     7
 10
-25.0
 20
-198.59999999999999
 30
0.0
 11
-25.0
 21
-199.40000000000001
 31
0.0
  0
LINE
  5
E8
  8
DATA
  6
CONTINUOUS
 62
     7
 10
-292.99999999977081
 20
-198.0
 30
0.0
 11
-292.99999999977081
 21
-200.0
 31
0.0
  0
LINE
  5
E9
  8
DATA
  6
CONTINUOUS
 62
     7
 10
-292.99999999977081
 20
-200.0
 30
0.0
 11
-76.500000000000014
 21
-200.0
 31
0.0
  0
LINE
  5
EA
  8
DATA
  6
CONTINUOUS
 62
     7
 10
-275.06404472087792
 20
-194.0
 30
0.0
 11
-275.06404472087792
 21
-198.0
 31
0.0
  0
LINE
  5
EB
  8
DATA
  6
CONTINUOUS
 62
     7
 10
-275.06404472087792
 20
-200.0
 30
0.0
 11
-275.06404472087792
 21
-204.0
 31
0.0
  0
LINE
  5
EC
  8
DATA
  6
CONTINUOUS
 62
     7
 10
-251.0640447208778
 20
-194.0
 30
0.0
 11
-251.0640447208778
 21
-198.0
 31
0.0
  0
LINE
  5
ED
  8
DATA
  6
CONTINUOUS
 62
     7
 10
-251.0640447208778
 20
-200.0
 30
0.0
 11
-251.0640447208778
 21
-204.0
 31
0.0
  0
LINE
  5
EE
  8
DATA
  6
CONTINUOUS
 62
     7
 10
-113.3452383767256
 20
-194.0
 30
0.0
 11
-113.3452383767256
 21
-198.0
 31
0.0
  0
LINE
  5
EF
  8
DATA
  6
CONTINUOUS
 62
     7
 10
-113.3452383767256
 20
-200.0
 30
0.0
 11
-113.3452383767256
 21
-204.0
 31
0.0
  0
LINE
  5
F0
  8
DATA
  6
CONTINUOUS
 62
     7
 10
-89.347842826023907
 20
-194.0
 30
0.0
 11
-89.347842826023907
 21
-198.0
 31
0.0
  0
LINE
  5
F1
  8
DATA
  6
CONTINUOUS
 62
     7
 10
-89.347842826023907
 20
-200.0
 30
0.0
 11
-89.347842826023907
 21
-204.0
 31
0.0
  0
LINE
  5
F2
  8
DATA
  6
CONTINUOUS
 62
     7
 10
-89.347842826023907
 20
-194.0
 30
0.0
 11
-113.3452383767256
 21
-194.0
 31
0.0
  0
LINE
  5
F3
  8
DATA
  6
CONTINUOUS
 62
     7
 10
-251.0640447208778
 20
-194.0
 30
0.0
 11
-275.06404472087792
 21
-194.0
 31
0.0
  0
LINE
  5
F4
  8
DATA
  6
CONTINUOUS
 62
     7
 10
-275.06404472087792
 20
-204.0
 30
0.0
 11
-251.0640447208778
 21
-204.0
 31
0.0
  0
LINE
  5
F5
  8
DATA
  6
CONTINUOUS
 62
     7
 10
-113.3452383767256
 20
-204.0
 30
0.0
 11
-89.347842826023907
 21
-204.0
 31
0.0
  0
LINE
  5
F6
  8
DATA
  6
CONTINUOUS
 62
     7
 10
-251.0640447208778
 20
-202.0
 30
0.0
 11
-113.3452383767256
 21
-202.0
 31
0.0
  0
LINE
  5
F7
  8
DATA
  6
CONTINUOUS
 62
     7
 10
-88.098359000443239
 20
-204.80000000000001
 30
0.0
 11
-76.500000000000014
 21
-204.80000000000001
 31
0.0
  0
LINE
  5
F8
  8
DATA
  6
CONTINUOUS
 62
     7
 10
-48.500000000000021
 20
-204.80000000000001
 30
0.0
 11
-25.000000000000011
 21
-204.80000000000001
 31
0.0
  0
LINE
  5
F9
  8
DATA
  6
CONTINUOUS
 62
     7
 10
-48.500000000000021
 20
-208.80000000000001
 30
0.0
 11
-45.000000000000021
 21
-208.80000000000001
 31
0.0
  0
LINE
  5
FA
  8
DATA
  6
CONTINUOUS
 62
     7
 10
-25.0
 20
-198.59999999999999
 30
0.0
 11
-48.500000000000021
 21
-198.59999999999999
 31
0.0
  0
LINE
  5
FB
  8
DATA
  6
CONTINUOUS
 62
     7
 10
-50.491720772446918
 20
-198.59999999999999
 30
0.0
 11
-50.500000000000021
 21
-198.59999999999999
 31
0.0
  0
LINE
  5
FC
  8
DATA
  6
CONTINUOUS
 62
     7
 10
-48.500000000000021
 20
-199.40000000000001
 30
0.0
 11
-25.0
 21
-199.40000000000001
 31
0.0
  0
LINE
  5
FD
  8
DATA
  6
CONTINUOUS
 62
     7
 10
-25.000000000000011
 20
-204.80000000000001
 30
0.0
 11
-25.000000000000011
 21
-199.40000000000001
 31
0.0
  0
LINE
  5
FE
  8
DATA
  6
CONTINUOUS
 62
     7
 10
-25.0
 20
-198.59999999999999
 30
0.0
 11
-25.0
 21
-181.23883918184319
 31
0.0
  0
LINE
  5
FF
  8
DATA
  6
CONTINUOUS
 62
     7
 10
-45.000000000000021
 20
-204.80000000000001
 30
0.0
 11
-45.000000000000021
 21
-208.80000000000001
 31
0.0
  0
LINE
  5
100
  8
DATA
  6
CONTINUOUS
 62
     7
 10
-88.098359000443239
 20
-204.80000000000001
 30
0.0
 11
-88.098359000443239
 21
-200.0
 31
0.0
  0
LINE
  5
101
  8
DATA
  6
CONTINUOUS
 62
     7
 10
-88.098359000443239
 20
-198.0
 30
0.0
 11
-88.098359000443239
 21
-194.0
 31
0.0
  0
ARC
  5
102
  8
DATA
  6
CONTINUOUS
 62
     7
 10
-39.774703891709002
 20
-224.76565813277369
 30
0.0
 40
45.966029228929102
 50
71.250779225729218
 51
107.17752066570129
  0
ARC
  5
103
  8
DATA
  6
CONTINUOUS
 62
     7
 10
-95.691744342643645
 20
-128.28974820942031
 30
0.0
 40
66.147537303640576
 50
276.5917826206279
 51
286.86606433962862
  0
ARC
  5
104
  8
DATA
  6
CONTINUOUS
 62
     7
 10
-95.691744342643645
 20
-128.28974820942031
 30
0.0
 40
66.147537303640576
 50
288.68660330603041
 51
301.40005222383081
  0
ARC
  5
105
  8
DATA
  6
CONTINUOUS
 62
     7
 10
-248.1612478651129
 20
202.7685840926697
 30
0.0
 40
430.2494876001212
 50
295.75195307071061
 51
296.9226171222453
  0
CIRCLE
  5
106
  8
DATA
  6
CONTINUOUS
 62
     7
 10
-62.500000000000021
 20
-200.45033240071061
 30
0.0
 40
12.150000000000031
  0
CIRCLE
  5
107
  8
DATA
  6
CONTINUOUS
 62
     7
 10
-36.250000000000021
 20
-189.40000000000001
 30
0.0
 40
4.8499999999999934
  0
CIRCLE
  5
108
  8
DATA
  6
CONTINUOUS
 62
     7
 10
-36.250000000000021
 20
-189.40000000000001
 30
0.0
 40
8.0
  0
CIRCLE
  5
109
  8
DATA
  6
CONTINUOUS
 62
     7
 10
-36.250000000000021
 20
-189.40000000000001
 30
0.0
 40
1.0
  0
LINE
  5
10A
  8
DATA
  6
CONTINUOUS
 62
     7
 10
-37.225000000000009
 20
-183.90000000000001
 30
0.0
 11
-35.275000000000027
 21
-183.90000000000001
 31
0.0
  0
LINE
  5
10B
  8
DATA
  6
CONTINUOUS
 62
     7
 10
-37.225000000000009
 20
-183.90000000000001
 30
0.0
 11
-37.225000000000009
 21
-184.6490132603839
 31
0.0
  0
LINE
  5
10C
  8
DATA
  6
CONTINUOUS
 62
     7
 10
-35.275000000000027
 20
-183.90000000000001
 30
0.0
 11
-35.275000000000027
 21
-184.6490132603839
 31
0.0
  0
LINE
  5
10D
  8
DATA
  6
CONTINUOUS
 62
     7
 10
-37.225000000000009
 20
-194.90000000000001
 30
0.0
 11
-35.275000000000027
 21
-194.90000000000001
 31
0.0
  0
LINE
  5
10E
  8
DATA
  6
CONTINUOUS
 62
     7
 10
-37.225000000000009
 20
-194.90000000000001
 30
0.0
 11
-37.225000000000009
 21
-194.1509867396162
 31
0.0
  0
LINE
  5
10F
  8
DATA
  6
CONTINUOUS
 62
     7
 10
-35.275000000000027
 20
-194.90000000000001
 30
0.0
 11
-35.275000000000027
 21
-194.1509867396162
 31
0.0
  0
CIRCLE
  5
110
  8
DATA
  6
CONTINUOUS
 62
     7
 10
-62.500000000000021
 20
-200.45033240071061
 30
0.0
 40
8.0
  0
CIRCLE
  5
111
  8
DATA
  6
CONTINUOUS
 62
     7
 10
-62.500000000000021
 20
-200.45033240071061
 30
0.0
 40
3.6500000000000332
  0
LINE
  5
112
  8
DATA
  6
CONTINUOUS
 62
     7
 10
-63.40000000000002
 20
-208.3995461983136
 30
0.0
 11
-63.40000000000002
 21
-203.98763363187501
 31
0.0
  0
LINE
  5
113
  8
DATA
  6
CONTINUOUS
 62
     7
 10
-63.40000000000002
 20
-196.91303116954609
 30
0.0
 11
-63.40000000000002
 21
-192.50111860310761
 31
0.0
  0
LINE
  5
114
  8
DATA
  6
CONTINUOUS
 62
     7
 10
-61.600000000000009
 20
-192.50111860310761
 30
0.0
 11
-61.600000000000009
 21
-196.91303116954609
 31
0.0
  0
LINE
  5
115
  8
DATA
  6
CONTINUOUS
 62
     7
 10
-61.600000000000009
 20
-203.98763363187501
 30
0.0
 11
-61.600000000000009
 21
-208.3995461983136
 31
0.0
  0
LINE
  5
116
  8
DATA
  6
CONTINUOUS
 62
     7
 10
-76.500000000000014
 20
-209.95033240071049
 30
0.0
 11
-76.500000000000014
 21
-190.95033240071049
 31
0.0
  0
LINE
  5
117
  8
DATA
  6
CONTINUOUS
 62
     7
 10
-48.500000000000021
 20
-209.95033240071049
 30
0.0
 11
-54.925536322616573
 21
-209.95033240071049
 31
0.0
  0
LINE
  5
118
  8
DATA
  6
CONTINUOUS
 62
     7
 10
-70.074463677383463
 20
-209.95033240071049
 30
0.0
 11
-76.500000000000014
 21
-209.95033240071049
 31
0.0
  0
LINE
  5
119
  8
DATA
  6
CONTINUOUS
 62
     7
 10
-48.500000000000021
 20
-190.95033240071049
 30
0.0
 11
-48.500000000000021
 21
-209.95033240071049
 31
0.0
  0
LINE
  5
11A
  8
DATA
  6
CONTINUOUS
 62
     7
 10
-76.500000000000014
 20
-190.95033240071049
 30
0.0
 11
-70.074463677383463
 21
-190.95033240071049
 31
0.0
  0
LINE
  5
11B
  8
DATA
  6
CONTINUOUS
 62
     7
 10
-54.925536322616573
 20
-190.95033240071049
 30
0.0
 11
-48.500000000000021
 21
-190.95033240071049
 31
0.0
  0
LINE
  5
11C
  8
DATA
  6
CONTINUOUS
 62
     7
 10
95.000000000178701
 20
-25.0
 30
0.0
 11
119.0000000001787
 21
-25.0
 31
0.0
  0
LINE
  5
11D
  8
DATA
  6
CONTINUOUS
 62
     7
 10
105.10000000031179
 20
244.0
 30
0.0
 11
107.10000000031179
 21
244.0
 31
0.0
  0
LINE
  5
11E
  8
DATA
  6
CONTINUOUS
 62
     7
 10
95.000000000178701
 20
-25.0
 30
0.0
 11
119.0000000001787
 21
-25.0
 31
0.0
  0
LINE
  5
11F
  8
DATA
  6
CONTINUOUS
 62
     7
 10
118.6315567318445
 20
-8.7884961939666368
 30
0.0
 11
119.0000000001787
 21
-25.0
 31
0.0
  0
LINE
  5
120
  8
DATA
  6
CONTINUOUS
 62
     7
 10
95.368443268369404
 20
-8.7884961939666368
 30
0.0
 11
95.000000000178701
 21
-25.0
 31
0.0
  0
LINE
  5
121
  8
DATA
  6
CONTINUOUS
 62
     7
 10
101.7000000003117
 20
158.98404865513311
 30
0.0
 11
112.5000000003118
 21
158.98404865513311
 31
0.0
  0
LINE
  5
122
  8
DATA
  6
CONTINUOUS
 62
     7
 10
89.523906749577506
 20
88.0
 30
0.0
 11
89.523906749577506
 21
91.0
 31
0.0
  0
LINE
  5
123
  8
DATA
  6
CONTINUOUS
 62
     7
 10
105.52390674957751
 20
91.0
 30
0.0
 11
105.52390674957751
 21
88.0
 31
0.0
  0
LINE
  5
124
  8
DATA
  6
CONTINUOUS
 62
     7
 10
89.523906749577506
 20
88.0
 30
0.0
 11
105.52390674957751
 21
88.0
 31
0.0
  0
LINE
  5
125
  8
DATA
  6
CONTINUOUS
 62
     7
 10
92.673906749577526
 20
75.0
 30
0.0
 11
102.3739067495775
 21
75.0
 31
0.0
  0
LINE
  5
126
  8
DATA
  6
CONTINUOUS
 62
     7
 10
92.673906749577526
 20
75.0
 30
0.0
 11
92.673906749577526
 21
88.0
 31
0.0
  0
LINE
  5
127
  8
DATA
  6
CONTINUOUS
 62
     7
 10
102.3739067495775
 20
88.0
 30
0.0
 11
102.3739067495775
 21
75.0
 31
0.0
  0
LINE
  5
128
  8
DATA
  6
CONTINUOUS
 62
     7
 10
92.023906749577534
 20
77.382692998219014
 30
0.0
 11
92.023906749577534
 21
79.332692998219017
 31
0.0
  0
LINE
  5
129
  8
DATA
  6
CONTINUOUS
 62
     7
 10
103.02390674957751
 20
79.332692998219017
 30
0.0
 11
103.02390674957751
 21
77.382692998219014
 31
0.0
  0
LINE
  5
12A
  8
DATA
  6
CONTINUOUS
 62
     7
 10
92.673906749577526
 20
79.332692998219017
 30
0.0
 11
92.023906749577534
 21
79.332692998219017
 31
0.0
  0
LINE
  5
12B
  8
DATA
  6
CONTINUOUS
 62
     7
 10
102.3739067495775
 20
79.332692998219017
 30
0.0
 11
103.02390674957751
 21
79.332692998219017
 31
0.0
  0
LINE
  5
12C
  8
DATA
  6
CONTINUOUS
 62
     7
 10
92.673906749577526
 20
77.382692998219014
 30
0.0
 11
92.023906749577534
 21
77.382692998219014
 31
0.0
  0
LINE
  5
12D
  8
DATA
  6
CONTINUOUS
 62
     7
 10
102.3739067495775
 20
77.382692998219014
 30
0.0
 11
103.02390674957751
 21
77.382692998219014
 31
0.0
  0
LINE
  5
12E
  8
DATA
  6
CONTINUOUS
 62
     7
 10
112.5000000003118
 20
158.98404865513311
 30
0.0
 11
112.5000000003118
 21
90.999999999973994
 31
0.0
  0
ARC
  5
12F
  8
DATA
  6
CONTINUOUS
 62
     7
 10
132.4656581330855
 20
105.774703891683
 30
0.0
 40
45.966029228929109
 50
162.82247933429869
 51
198.74922077427081
  0
ARC
  5
130
  8
DATA
  6
CONTINUOUS
 62
     7
 10
35.989748209732149
 20
161.6917443426176
 30
0.0
 40
66.147537303640533
 50
328.5999477761693
 51
353.40821737937199
  0
ARC
  5
131
  8
DATA
  6
CONTINUOUS
 62
     7
 10
-295.06858409235809
 20
314.16124786508692
 30
0.0
 40
430.24948760012148
 50
333.07738287775447
 51
334.24804692928927
  0
LINE
  5
132
  8
DATA
  6
CONTINUOUS
 62
     7
 10
112.5000000003118
 20
90.999999999973994
 30
0.0
 11
88.938839182154936
 21
90.999999999973994
 31
0.0
  0
LINE
  5
133
  8
DATA
  6
CONTINUOUS
 62
     7
 10
101.7000000003117
 20
154.09835900041719
 30
0.0
 11
101.7000000003117
 21
158.98404865513311
 31
0.0
  0
LINE
  5
134
  8
DATA
  6
CONTINUOUS
 62
     7
 10
106.5000000003118
 20
158.98404865513311
 30
0.0
 11
106.5000000003118
 21
90.999999999973994
 31
0.0
  0
LINE
  5
135
  8
DATA
  6
CONTINUOUS
 62
     7
 10
105.7000000003118
 20
158.98404865513311
 30
0.0
 11
105.7000000003118
 21
90.999999999973994
 31
0.0
  0
LINE
  5
136
  8
DATA
  6
CONTINUOUS
 62
     7
 10
99.500000000178716
 20
19.21150380603336
 30
0.0
 11
101.5000000001787
 21
19.21150380603336
 31
0.0
  0
LINE
  5
137
  8
DATA
  6
CONTINUOUS
 62
     7
 10
112.5000000003118
 20
19.21150380603336
 30
0.0
 11
114.5000000001787
 21
19.21150380603336
 31
0.0
  0
LINE
  5
138
  8
DATA
  6
CONTINUOUS
 62
     7
 10
97.500000000178716
 20
-6.009726869176375
 30
0.0
 11
97.500000000178716
 21
17.21150380603337
 31
0.0
  0
LINE
  5
139
  8
DATA
  6
CONTINUOUS
 62
     7
 10
116.5000000001787
 20
17.21150380603337
 30
0.0
 11
116.5000000001787
 21
-6.009726869320076
 31
0.0
  0
ARC
  5
13A
  8
DATA
  6
CONTINUOUS
 62
     7
 10
107.00000000010689
 20
-15.503978604046919
 30
0.0
 40
13.430964820284769
 50
29.99999999969409
 51
150.0000000003059
  0
LINE
  5
13B
  8
DATA
  6
CONTINUOUS
 62
     7
 10
112.5000000003118
 20
90.999999999973994
 30
0.0
 11
112.5000000003118
 21
19.21150380603336
 31
0.0
  0
ARC
  5
13C
  8
DATA
  6
CONTINUOUS
 62
     7
 10
-426.8281556557792
 20
-49.582281617616097
 30
0.0
 40
534.58298782224745
 50
10.08195204089145
 51
13.476453082537491
  0
ARC
  5
13D
  8
DATA
  6
CONTINUOUS
 62
     7
 10
-426.8281556557792
 20
-49.582281617616097
 30
0.0
 40
534.58298782224745
 50
13.64175853684265
 51
13.73920233348584
  0
ARC
  5
13E
  8
DATA
  6
CONTINUOUS
 62
     7
 10
-426.8281556557792
 20
-49.582281617616097
 30
0.0
 40
534.58298782224745
 50
13.93406953890649
 51
14.91369361924656
  0
ARC
  5
13F
  8
DATA
  6
CONTINUOUS
 62
     7
 10
-426.8281556557792
 20
-49.582281617616097
 30
0.0
 40
534.58298782224745
 50
15.006397357598919
 51
15.246697213335461
  0
ARC
  5
140
  8
DATA
  6
CONTINUOUS
 62
     7
 10
-188.28448693832681
 20
8.3058724203077912
 30
0.0
 40
289.989623376655
 50
2.1552289457726839
 51
7.0703306339075507
  0
LINE
  5
141
  8
DATA
  6
CONTINUOUS
 62
     7
 10
106.5000000003118
 20
90.999999999973994
 30
0.0
 11
106.5000000003118
 21
13.6
 31
0.0
  0
LINE
  5
142
  8
DATA
  6
CONTINUOUS
 62
     7
 10
105.7000000003118
 20
90.999999999973994
 30
0.0
 11
105.7000000003117
 21
13.6
 31
0.0
  0
LINE
  5
143
  8
DATA
  6
CONTINUOUS
 62
     7
 10
105.10000000031179
 20
158.98404865513311
 30
0.0
 11
105.10000000031179
 21
244.0
 31
0.0
  0
LINE
  5
144
  8
DATA
  6
CONTINUOUS
 62
     7
 10
107.10000000031179
 20
244.0
 30
0.0
 11
107.10000000031179
 21
158.98404865513311
 31
0.0
  0
LINE
  5
145
  8
DATA
  6
CONTINUOUS
 62
     7
 10
107.0000000001787
 20
13.6
 30
0.0
 11
107.0000000001787
 21
-2.073013783762121
 31
0.0
  0
LINE
  5
146
  8
DATA
  6
CONTINUOUS
 62
     7
 10
112.5000000003118
 20
105.0
 30
0.0
 11
116.5000000003118
 21
105.0
 31
0.0
  0
LINE
  5
147
  8
DATA
  6
CONTINUOUS
 62
     7
 10
112.5000000003118
 20
107.0
 30
0.0
 11
116.5000000003118
 21
107.0
 31
0.0
  0
LINE
  5
148
  8
DATA
  6
CONTINUOUS
 62
     7
 10
112.5000000003118
 20
120.0
 30
0.0
 11
116.5000000003118
 21
120.0
 31
0.0
  0
LINE
  5
149
  8
DATA
  6
CONTINUOUS
 62
     7
 10
112.5000000003118
 20
122.0
 30
0.0
 11
116.5000000003118
 21
122.0
 31
0.0
  0
LINE
  5
14A
  8
DATA
  6
CONTINUOUS
 62
     7
 10
116.5000000003118
 20
105.0
 30
0.0
 11
116.5000000003118
 21
107.0
 31
0.0
  0
LINE
  5
14B
  8
DATA
  6
CONTINUOUS
 62
     7
 10
116.5000000003118
 20
120.0
 30
0.0
 11
116.5000000003118
 21
122.0
 31
0.0
  0
ARC
  5
14C
  8
DATA
  6
CONTINUOUS
 62
     7
 10
99.500000000178716
 20
17.21150380603337
 30
0.0
 40
2.0
 50
90.0
 51
180.0
  0
ARC
  5
14D
  8
DATA
  6
CONTINUOUS
 62
     7
 10
114.5000000001787
 20
17.21150380603337
 30
0.0
 40
2.0000000000000071
 50
0.0
 51
90.0
  0
LINE
  5
14E
  8
DATA
  6
CONTINUOUS
 62
     7
 10
101.5000000001787
 20
13.6
 30
0.0
 11
102.5000000001787
 21
13.6
 31
0.0
  0
LINE
  5
14F
  8
DATA
  6
CONTINUOUS
 62
     7
 10
105.7000000003118
 20
13.6
 30
0.0
 11
107.0000000001787
 21
13.6
 31
0.0
  0
LINE
  5
150
  8
DATA
  6
CONTINUOUS
 62
     7
 10
111.5000000003118
 20
13.6
 30
0.0
 11
112.5000000003118
 21
13.6
 31
0.0
  0
LINE
  5
151
  8
DATA
  6
CONTINUOUS
 62
     7
 10
101.5000000001787
 20
19.21150380603336
 30
0.0
 11
101.5000000001787
 21
13.6
 31
0.0
  0
LINE
  5
152
  8
DATA
  6
CONTINUOUS
 62
     7
 10
112.5000000003118
 20
19.21150380603336
 30
0.0
 11
112.5000000003118
 21
13.6
 31
0.0
  0
LINE
  5
153
  8
DATA
  6
CONTINUOUS
 62
     7
 10
102.5000000001787
 20
13.6
 30
0.0
 11
102.5000000001787
 21
-2.8493029462368029
 31
0.0
  0
LINE
  5
154
  8
DATA
  6
CONTINUOUS
 62
     7
 10
111.5000000003118
 20
13.6
 30
0.0
 11
111.5000000003118
 21
-2.8493029463351141
 31
0.0
  0
LINE
  5
155
  8
DATA
  6
CONTINUOUS
 62
     7
 10
199.99999999981111
 20
156.98421960658939
 30
0.0
 11
199.99999999981111
 21
93.0
 31
0.0
  0
LINE
  5
156
  8
DATA
  6
CONTINUOUS
 62
     7
 10
220.49999999981091
 20
91.0
 30
0.0
 11
201.99999999981111
 21
91.0
 31
0.0
  0
LINE
  5
157
  8
DATA
  6
CONTINUOUS
 62
     7
 10
225.4999999998108
 20
244.0
 30
0.0
 11
225.4999999998108
 21
157.25455329101911
 31
0.0
  0
LINE
  5
158
  8
DATA
  6
CONTINUOUS
 62
     7
 10
225.4999999998108
 20
86.0
 30
0.0
 11
225.4999999998108
 21
12.422606356961291
 31
0.0
  0
LINE
  5
159
  8
DATA
  6
CONTINUOUS
 62
     7
 10
249.4999999998108
 20
-25.0
 30
0.0
 11
225.4999999998108
 21
-25.0
 31
0.0
  0
CIRCLE
  5
15A
  8
DATA
  6
CONTINUOUS
 62
     7
 10
237.4999999998108
 20
5.2115038060333632
 30
0.0
 40
13.99999999999997
  0
ARC
  5
15B
  8
DATA
  6
CONTINUOUS
 62
     7
 10
237.4999999998106
 20
4.8952146179495912
 30
0.0
 40
13.999999999999771
 50
214.75786373233561
 51
325.24213626901542
  0
LINE
  5
15C
  8
DATA
  6
CONTINUOUS
 62
     7
 10
225.9980382099437
 20
-3.0863187550581301
 30
0.0
 11
225.4999999998108
 21
-25.0
 31
0.0
  0
LINE
  5
15D
  8
DATA
  6
CONTINUOUS
 62
     7
 10
249.0019617898657
 20
-3.0863187547869302
 30
0.0
 11
249.4999999998108
 21
-25.0
 31
0.0
  0
ARC
  5
15E
  8
DATA
  6
CONTINUOUS
 62
     7
 10
199.4799999998113
 20
-35.73999999999841
 30
0.0
 40
194.74069425777279
 50
72.512233268023479
 51
89.250861480579616
  0
ARC
  5
15F
  8
DATA
  6
CONTINUOUS
 62
     7
 10
149.12300649715311
 20
115.87463083284111
 30
0.0
 40
114.0996955954425
 50
350.32544859438229
 51
17.402581625816989
  0
ARC
  5
160
  8
DATA
  6
CONTINUOUS
 62
     7
 10
882.79991730741494
 20
13.91250689103312
 30
0.0
 40
633.30166987417601
 50
177.5214382595008
 51
180.13479372517449
  0
ARC
  5
161
  8
DATA
  6
CONTINUOUS
 62
     7
 10
531.28262757019218
 20
11.778247950378271
 30
0.0
 40
282.73737564114617
 50
162.52103790723149
 51
174.00659196109891
  0
ARC
  5
162
  8
DATA
  6
CONTINUOUS
 62
     7
 10
201.99999999981111
 20
156.98421960658939
 30
0.0
 40
2.000000000000008
 50
89.250861480579843
 51
180.0
  0
ARC
  5
163
  8
DATA
  6
CONTINUOUS
 62
     7
 10
201.99999999981111
 20
93.0
 30
0.0
 40
1.9999999999999709
 50
180.0
 51
270.0
  0
ARC
  5
164
  8
DATA
  6
CONTINUOUS
 62
     7
 10
220.49999999981091
 20
86.0
 30
0.0
 40
4.9999999999999432
 50
0.0
 51
90.0
  0
LINE
  5
165
  8
DATA
  6
CONTINUOUS
 62
     7
 10
219.2499999998108
 20
88.0
 30
0.0
 11
219.2499999998108
 21
91.0
 31
0.0
  0
LINE
  5
166
  8
DATA
  6
CONTINUOUS
 62
     7
 10
203.24999999981111
 20
91.0
 30
0.0
 11
203.24999999981111
 21
88.0
 31
0.0
  0
LINE
  5
167
  8
DATA
  6
CONTINUOUS
 62
     7
 10
219.2499999998108
 20
88.0
 30
0.0
 11
203.24999999981111
 21
88.0
 31
0.0
  0
LINE
  5
168
  8
DATA
  6
CONTINUOUS
 62
     7
 10
216.0999999998109
 20
75.0
 30
0.0
 11
206.39999999981109
 21
75.0
 31
0.0
  0
LINE
  5
169
  8
DATA
  6
CONTINUOUS
 62
     7
 10
216.0999999998109
 20
75.0
 30
0.0
 11
216.0999999998109
 21
88.0
 31
0.0
  0
LINE
  5
16A
  8
DATA
  6
CONTINUOUS
 62
     7
 10
206.39999999981109
 20
88.0
 30
0.0
 11
206.39999999981109
 21
75.0
 31
0.0
  0
CIRCLE
  5
16B
  8
DATA
  6
CONTINUOUS
 62
     7
 10
211.249999999811
 20
78.357692998219008
 30
0.0
 40
0.9749999999999515
  0
LINE
  5
16C
  8
DATA
  6
CONTINUOUS
 62
     7
 10
272.85515401596712
 20
-14.429240594175839
 30
0.0
 11
249.49825742673929
 21
13.80000000000001
 31
0.0
  0
ARC
  5
16D
  8
DATA
  6
CONTINUOUS
 62
     7
 10
400.54403783607711
 20
125.3887671315977
 30
0.0
 40
67.457128373806739
 50
359.66309087947133
 51
50.650846349764613
  0
ARC
  5
16E
  8
DATA
  6
CONTINUOUS
 62
     7
 10
232.34124620749699
 20
-110.1353810649077
 30
0.0
 40
356.7555832091391
 50
53.745898390000832
 51
82.598347184416355
  0
LINE
  5
16F
  8
DATA
  6
CONTINUOUS
 62
     7
 10
225.4999999998108
 20
244.0
 30
0.0
 11
270.55292090546681
 21
244.0
 31
0.0
  0
ARC
  5
170
  8
DATA
  6
CONTINUOUS
 62
     7
 10
400.54403783607711
 20
104.1819922742265
 30
0.0
 40
67.457128373806839
 50
309.34915365023539
 51
0.3369091205286737
  0
ARC
  5
171
  8
DATA
  6
CONTINUOUS
 62
     7
 10
232.34124620749699
 20
339.7061404707319
 30
0.0
 40
356.7555832091391
 50
276.9484159074637
 51
306.25410160999922
  0
LINE
  5
172
  8
DATA
  6
CONTINUOUS
 62
     7
 10
225.4999999998108
 20
-14.429240594175839
 30
0.0
 11
225.74024453177131
 21
-14.429240594175839
 31
0.0
  0
LINE
  5
173
  8
DATA
  6
CONTINUOUS
 62
     7
 10
272.85515401596712
 20
-14.429240594175839
 30
0.0
 11
275.49999999981083
 21
-14.429240594175839
 31
0.0
  0
LINE
  5
174
  8
DATA
  6
CONTINUOUS
 62
     7
 10
467.99999999958152
 20
104.5786496025294
 30
0.0
 11
467.99999999958152
 21
124.9921098032947
 31
0.0
  0
ARC
  5
175
  8
DATA
  6
CONTINUOUS
 62
     7
 10
270.37646045263898
 20
154.8104228175261
 30
0.0
 40
89.189751744692444
 50
84.903173643775574
 51
90.113358828747764
  0
CIRCLE
  5
176
  8
DATA
  6
CONTINUOUS
 62
     7
 10
276.34523837653637
 20
125.0
 30
0.0
 40
12.0
  0
CIRCLE
  5
177
  8
DATA
  6
CONTINUOUS
 62
     7
 10
276.34523837653637
 20
125.0
 30
0.0
 40
11.5
  0
CIRCLE
  5
178
  8
DATA
  6
CONTINUOUS
 62
     7
 10
438.0640447206888
 20
125.0
 30
0.0
 40
12.0
  0
CIRCLE
  5
179
  8
DATA
  6
CONTINUOUS
 62
     7
 10
438.0640447206888
 20
125.0
 30
0.0
 40
11.5
  0
LINE
  5
17A
  8
DATA
  6
CONTINUOUS
 62
     7
 10
439.89999999982331
 20
65.004703669753297
 30
0.0
 11
436.89999999982342
 21
65.004703669753297
 31
0.0
  0
LINE
  5
17B
  8
DATA
  6
CONTINUOUS
 62
     7
 10
439.89999999982331
 20
65.004703669753297
 30
0.0
 11
439.89999999982331
 21
113.1412788120718
 31
0.0
  0
LINE
  5
17C
  8
DATA
  6
CONTINUOUS
 62
     7
 10
436.89999999982342
 20
113.05659178091
 30
0.0
 11
436.89999999982342
 21
65.004703669753297
 31
0.0
  0
LINE
  5
17D
  8
DATA
  6
CONTINUOUS
 62
     7
 10
288.30283668687377
 20
123.9921098032947
 30
0.0
 11
426.10644641035083
 21
123.9921098032947
 31
0.0
  0
LINE
  5
17E
  8
DATA
  6
CONTINUOUS
 62
     7
 10
426.10512678727122
 20
125.9921098032947
 30
0.0
 11
288.3041563099535
 21
125.9921098032947
 31
0.0
  0
LINE
  5
17F
  8
DATA
  6
CONTINUOUS
 62
     7
 10
421.7165261129316
 20
125.9921098032947
 30
0.0
 11
421.7165261129316
 21
190.99210980329471
 31
0.0
  0
LINE
  5
180
  8
DATA
  6
CONTINUOUS
 62
     7
 10
418.71652611293149
 20
190.99210980329471
 30
0.0
 11
418.71652611293149
 21
125.9921098032947
 31
0.0
  0
LINE
  5
181
  8
DATA
  6
CONTINUOUS
 62
     7
 10
421.7165261129316
 20
190.99210980329471
 30
0.0
 11
418.71652611293149
 21
190.99210980329471
 31
0.0
  0
POLYLINE
  5
182
  8
DATA
  6
CONTINUOUS
 62
     7
 66
     1
 10
0.0
 20
0.0
 30
0.0
 70
     1
  0
VERTEX
  5
270
  8
DATA
  6
CONTINUOUS
 62
     7
 10
376.20567151541678
 20
205.99210980329471
 30
0.0
  0
VERTEX
  5
271
  8
DATA
  6
CONTINUOUS
 62
     7
 10
380.20567151541678
 20
205.99210980329471
 30
0.0
  0
VERTEX
  5
272
  8
DATA
  6
CONTINUOUS
 62
     7
 10
380.20567151541678
 20
125.9921098032947
 30
0.0
  0
VERTEX
  5
273
  8
DATA
  6
CONTINUOUS
 62
     7
 10
376.20567151541678
 20
125.9921098032947
 30
0.0
  0
SEQEND
  5
274
  8
DATA
  6
CONTINUOUS
 62
     7
  0
POLYLINE
  5
189
  8
DATA
  6
CONTINUOUS
 62
     7
 66
     1
 10
0.0
 20
0.0
 30
0.0
 70
     1
  0
VERTEX
  5
275
  8
DATA
  6
CONTINUOUS
 62
     7
 10
310.67271208077511
 20
233.99210980329471
 30
0.0
  0
VERTEX
  5
276
  8
DATA
  6
CONTINUOUS
 62
     7
 10
316.67271208077511
 20
233.99210980329471
 30
0.0
  0
VERTEX
  5
277
  8
DATA
  6
CONTINUOUS
 62
     7
 10
316.67271208077511
 20
125.9921098032947
 30
0.0
  0
VERTEX
  5
278
  8
DATA
  6
CONTINUOUS
 62
     7
 10
310.67271208077511
 20
125.9921098032947
 30
0.0
  0
SEQEND
  5
279
  8
DATA
  6
CONTINUOUS
 62
     7
  0
LINE
  5
190
  8
DATA
  6
CONTINUOUS
 62
     7
 10
280.45103106764532
 20
-1.259451162238576
 30
0.0
 11
280.45103106764532
 21
113.7242531787186
 31
0.0
  0
LINE
  5
191
  8
DATA
  6
CONTINUOUS
 62
     7
 10
272.4510310676452
 20
-1.259451162238576
 30
0.0
 11
280.45103106764532
 21
-1.259451162238576
 31
0.0
  0
LINE
  5
192
  8
DATA
  6
CONTINUOUS
 62
     7
 10
272.4510310676452
 20
113.64944276982941
 30
0.0
 11
272.4510310676452
 21
-1.259451162238576
 31
0.0
  0
LINE
  5
193
  8
DATA
  6
CONTINUOUS
 62
     7
 10
350.46055707240077
 20
33.99210980329471
 30
0.0
 11
350.46055707240077
 21
123.9921098032947
 31
0.0
  0
LINE
  5
194
  8
DATA
  6
CONTINUOUS
 62
     7
 10
344.46055707240077
 20
33.99210980329471
 30
0.0
 11
350.46055707240077
 21
33.99210980329471
 31
0.0
  0
LINE
  5
195
  8
DATA
  6
CONTINUOUS
 62
     7
 10
344.46055707240077
 20
123.9921098032947
 30
0.0
 11
344.46055707240077
 21
33.99210980329471
 31
0.0
  0
LINE
  5
196
  8
DATA
  6
CONTINUOUS
 62
     7
 10
402.70586510315871
 20
53.992109803294703
 30
0.0
 11
402.70586510315871
 21
123.9921098032947
 31
0.0
  0
LINE
  5
197
  8
DATA
  6
CONTINUOUS
 62
     7
 10
398.70586510315883
 20
53.992109803294703
 30
0.0
 11
402.70586510315871
 21
53.992109803294703
 31
0.0
  0
LINE
  5
198
  8
DATA
  6
CONTINUOUS
 62
     7
 10
398.70586510315883
 20
123.9921098032947
 30
0.0
 11
398.70586510315883
 21
53.992109803294703
 31
0.0
  0
LINE
  5
199
  8
DATA
  6
CONTINUOUS
 62
     7
 10
219.99999999981111
 20
122.0
 30
0.0
 11
247.99999999981111
 21
122.0
 31
0.0
  0
LINE
  5
19A
  8
DATA
  6
CONTINUOUS
 62
     7
 10
219.99999999981111
 20
120.0
 30
0.0
 11
247.99999999981111
 21
120.0
 31
0.0
  0
LINE
  5
19B
  8
DATA
  6
CONTINUOUS
 62
     7
 10
219.99999999981111
 20
107.0
 30
0.0
 11
247.99999999981111
 21
107.0
 31
0.0
  0
LINE
  5
19C
  8
DATA
  6
CONTINUOUS
 62
     7
 10
219.99999999981111
 20
105.0
 30
0.0
 11
247.99999999981111
 21
105.0
 31
0.0
  0
LINE
  5
19D
  8
DATA
  6
CONTINUOUS
 62
     7
 10
219.99999999981111
 20
105.0
 30
0.0
 11
219.99999999981111
 21
107.0
 31
0.0
  0
LINE
  5
19E
  8
DATA
  6
CONTINUOUS
 62
     7
 10
219.99999999981111
 20
120.0
 30
0.0
 11
219.99999999981111
 21
122.0
 31
0.0
  0
LINE
  5
19F
  8
DATA
  6
CONTINUOUS
 62
     7
 10
247.99999999981111
 20
105.0
 30
0.0
 11
247.99999999981111
 21
107.0
 31
0.0
  0
LINE
  5
1A0
  8
DATA
  6
CONTINUOUS
 62
     7
 10
247.99999999981111
 20
120.0
 30
0.0
 11
247.99999999981111
 21
122.0
 31
0.0
  0
LINE
  5
1A1
  8
DATA
  6
CONTINUOUS
 62
     7
 10
219.99999999981111
 20
118.72
 30
0.0
 11
247.99999999981111
 21
118.72
 31
0.0
  0
LINE
  5
1A2
  8
DATA
  6
CONTINUOUS
 62
     7
 10
219.99999999981111
 20
117.72
 30
0.0
 11
247.99999999981111
 21
117.72
 31
0.0
  0
LINE
  5
1A3
  8
DATA
  6
CONTINUOUS
 62
     7
 10
219.99999999981111
 20
108.28
 30
0.0
 11
247.99999999981111
 21
108.28
 31
0.0
  0
LINE
  5
1A4
  8
DATA
  6
CONTINUOUS
 62
     7
 10
219.99999999981111
 20
109.28
 30
0.0
 11
247.99999999981111
 21
109.28
 31
0.0
  0
LINE
  5
1A5
  8
DATA
  6
CONTINUOUS
 62
     7
 10
219.99999999981111
 20
108.28
 30
0.0
 11
219.99999999981111
 21
109.28
 31
0.0
  0
LINE
  5
1A6
  8
DATA
  6
CONTINUOUS
 62
     7
 10
219.99999999981111
 20
117.72
 30
0.0
 11
219.99999999981111
 21
118.72
 31
0.0
  0
LINE
  5
1A7
  8
DATA
  6
CONTINUOUS
 62
     7
 10
247.99999999981111
 20
108.28
 30
0.0
 11
247.99999999981111
 21
109.28
 31
0.0
  0
LINE
  5
1A8
  8
DATA
  6
CONTINUOUS
 62
     7
 10
247.99999999981111
 20
117.72
 30
0.0
 11
247.99999999981111
 21
118.72
 31
0.0
  0
CIRCLE
  5
1A9
  8
DATA
  6
CONTINUOUS
 62
     7
 10
211.99999999981111
 20
143.9527723363102
 30
0.0
 40
1.75
  0
LINE
  5
1AA
  8
DATA
  6
CONTINUOUS
 62
     7
 10
211.04479977118629
 20
143.9527723363102
 30
0.0
 11
212.9552002284359
 21
143.9527723363102
 31
0.0
  0
LINE
  5
1AB
  8
DATA
  6
CONTINUOUS
 62
     7
 10
211.99999999981111
 20
142.99757210768539
 30
0.0
 11
211.99999999981111
 21
144.90797256493499
 31
0.0
  0
CIRCLE
  5
1AC
  8
DATA
  6
CONTINUOUS
 62
     7
 10
204.2622751637212
 20
95.344761763254965
 30
0.0
 40
1.75
  0
LINE
  5
1AD
  8
DATA
  6
CONTINUOUS
 62
     7
 10
203.3070749350963
 20
95.344761763254965
 30
0.0
 11
205.21747539234599
 21
95.344761763254965
 31
0.0
  0
LINE
  5
1AE
  8
DATA
  6
CONTINUOUS
 62
     7
 10
204.2622751637212
 20
94.389561534630204
 30
0.0
 11
204.2622751637212
 21
96.299961991879783
 31
0.0
  0
CIRCLE
  5
1AF
  8
DATA
  6
CONTINUOUS
 62
     7
 10
238.4999999998108
 20
56.211503806033342
 30
0.0
 40
1.75
  0
LINE
  5
1B0
  8
DATA
  6
CONTINUOUS
 62
     7
 10
237.54479977118601
 20
56.211503806033342
 30
0.0
 11
239.45520022843559
 21
56.211503806033342
 31
0.0
  0
LINE
  5
1B1
  8
DATA
  6
CONTINUOUS
 62
     7
 10
238.4999999998108
 20
55.256303577408552
 30
0.0
 11
238.4999999998108
 21
57.166704034658139
 31
0.0
  0
CIRCLE
  5
1B2
  8
DATA
  6
CONTINUOUS
 62
     7
 10
249.49744774687721
 20
85.25
 30
0.0
 40
1.75
  0
LINE
  5
1B3
  8
DATA
  6
CONTINUOUS
 62
     7
 10
248.5422475182524
 20
85.25
 30
0.0
 11
250.45264797550189
 21
85.25
 31
0.0
  0
LINE
  5
1B4
  8
DATA
  6
CONTINUOUS
 62
     7
 10
249.49744774687721
 20
84.294799771375196
 30
0.0
 11
249.49744774687721
 21
86.205200228624804
 31
0.0
  0
TEXT
  5
1B5
  8
DATA
 62
     7
 10
-15.68491918716901
 20
-245.085198823767
 30
0.0
 40
13.57367621527778
  1
3 8
 41
0.7
 11
-15.68491918716901
 21
-231.51152260848929
 31
0.0
 73
     3
  0
TEXT
  5
1B6
  8
DATA
 62
     7
 10
48.445634386912808
 20
-244.891924799132
 30
0.0
 40
13.57367621527778
  1
5 8インチ変換ねじ
 41
0.7
 11
48.445634386912808
 21
-231.31824858385431
 31
0.0
 73
     3
  0
LINE
  5
1B7
  8
DATA
  6
CONTINUOUS
 62
     7
 10
17.188703298466901
 20
-238.32515319673249
 30
0.0
 11
42.188703298466777
 21
-238.32515319673249
 31
0.0
  0
LINE
  5
1B8
  8
DATA
  6
CONTINUOUS
 62
     7
 10
42.188703298466777
 20
-238.32515319673249
 30
0.0
 11
26.313703298466791
 21
-242.57884662657659
 31
0.0
  0
LINE
  5
1B9
  8
DATA
  6
CONTINUOUS
 62
     7
 10
42.188703298466777
 20
-238.32515319673249
 30
0.0
 11
26.313703298466791
 21
-234.07145976688841
 31
0.0
  0
LINE
  5
1BA
  8
DATA
  6
CONTINUOUS
 62
     7
 10
-59.340508556752233
 20
-207.80000000000001
 30
0.0
 11
-25.0
 21
-250.0
 31
0.0
  0
LINE
  5
1BB
  8
DATA
  6
CONTINUOUS
 62
     7
 10
-59.340508556752233
 20
-207.80000000000001
 30
0.0
 11
-45.877737038314649
 21
-217.226734102405
 31
0.0
  0
LINE
  5
1BC
  8
DATA
  6
CONTINUOUS
 62
     7
 10
-59.340508556752233
 20
-207.80000000000001
 30
0.0
 11
-52.394773467642182
 21
-222.69517696662251
 31
0.0
  0
LINE
  5
1BD
  8
DATA
  6
CONTINUOUS
 62
     7
 10
-25.0
 20
-250.0
 30
0.0
 11
212.5
 21
-250.0
 31
0.0
  0
ARC
  5
1BE
  8
DATA
  6
CONTINUOUS
 62
     7
 10
-62.500000000000021
 20
351.81706606404441
 30
0.0
 40
12.150000000000061
 50
47.674894395413773
 51
132.32510560458741
  0
LINE
  5
1BF
  8
DATA
  6
CONTINUOUS
 62
     7
 10
-6.33604256375851
 20
-245.59999999999999
 30
0.0
 11
0.7422183058067163
 21
-230.80000000000001
 31
0.0
  0
LINE
  5
1C0
  8
DATA
  6
CONTINUOUS
 62
     7
 10
58.211934511158461
 20
-245.59999999999999
 30
0.0
 11
65.290195380723674
 21
-230.80000000000001
 31
0.0
  0
ENDSEC
  0
EOF
